Geyik Merkezi Geyik Merkezi Video Mail forum


ben nasıl büyük adam olucam(tab) - pinhani

girişte çalınan tab!

|-------------------------------------------------------------------|
|------------------------------------------------------------------|
|------------------------------------------------------------------| ilk
tab
|------------------------------9-7-6------------------------------|
|----7-9-9—-7-9--7-9--7-9-----------------7-9-9-—7-9--7-9-----------|
|------------------------------------------------------------------|

|------------------------------------------------------------------|
|-----------------------------------------------------------------|
|--------------------------------------4--------------------------|
|------------------------------9-7-6-------------------------------|
|---7-9-9-—7-9--7-9--7-9----------------------------------------|
|-----------------------------------------------------------------|
ardından ‘ilk’ kere daha tekrarlanır(ama siz çalmadan önce söyle elinizi
5.tel kaydırın)
sözler giriyor buralar akorla……
dıkkat! her kim uğrunaaaaaaaa uğrunaaaaaaaaaaa dediği zaman ‘ilk’ tekrar
çalınır..

ve solo!
e|--------------------------------------------------------|
|---7---9-----------------------------------------------| dıkkat:
bentlidir.
|-----------9-8-6--------5-4--------------------------|
|--------------------7-6--------------------------------|
|--------------------------------------------------------|

|--------------------------------------------------------|
|--------------------------------------------------------| not:en alt tel
kalındır!
|--------------------------------------------------------|
|------------------------9-7-6-------------------------|
|-7-9--7-9--7-9-7-9------------7-9-9—-7-9—7-9----|
|--------------------------------------------------------|

|--------------------------------------------------------|
|--------------------------------------------------------|
|--------------------------------------------------------|
|------------------------------------------9-7----------|
|--7-9-9—-7-9—-7-9—-7-9—-7-9-----------------------------|
|--------------------------------------------------------|

|-----------------------------------12-11-----------------------------|
|--12-14-14—-12-14-—12-14-—14-12-14-------12-14-14—-12-14—-12-14--------|
|------------------------------------------------------------------|
|------------------------------------------------------------------|
|------------------------------------------------------------------|
|------------------------------------------------------------------|



|-------------------------------------------12-11----|
|--12-14-14—12-14—14-12-14-12------------------------|
|----------------------------------------------------|
|----------------------------------------------------|
|----------------------------------------------------|
|----------------------------------------------------|
solo burada biter
tekrar sözler başlar akorla…
ve ensonunda aşağıdaki iki kere çalınır.
|------------------------------14-12-11-----------------|
|-12-14-14—12-14—12-14—12-14----------------------------|
|-------------------------------------------------------|
|-------------------------------------------------------|
|-------------------------------------------------------|

akor8987
Yorum Ekle

(Lütfen Cevaplayın)
Yorumunuz:



Ekle : Ekle Face book Ekle Google Ekle Digg Ekle Reddit Ekle Furl Ekle Del.icio.us Ekle Jeqq Ekle Spurl

Forum Linki:
Html Linki:
Direkt Link:
Mause ile tıklayın ve Ctrl + C ile kopyalayın
Geyik Merkezi Geyik Forum Geyik Manken Resmi