Geyik Merkezi Geyik Merkezi Video Mail forum


caddelerde rüzgar(emin olmasam yazmazdım) - nilüfer

e--------------------9--

b-9-9-9-9-10-9-9-9-9---9
g-----------------------
d-----------------------
a-----------------------
e-----------------------

caddelerde rüzgar aklimda ask var

e-------------------7--
b-7-7-7-7-9-7-7-7-7---7
g----------------------
d----------------------
a----------------------
e----------------------

gece yarisinda eski yagmurlar

e-------------------5--
b-5-5-5-5-7-5-5-5-5---5
g----------------------
d----------------------
a----------------------
e----------------------

sarki söylüyorlar sessiz usulca

e-------------------4----
b-4-4-4-4-5-4-4-4-4---4-2
g------------------------
d------------------------
a------------------------
e------------------------

özledigim simdi çok uzaklarda


(şarkının diğer bölümleride böyle gidiyo)
akor10933
Yorum Ekle

(Lütfen Cevaplayın)
Yorumunuz:



Ekle : Ekle Face book Ekle Google Ekle Digg Ekle Reddit Ekle Furl Ekle Del.icio.us Ekle Jeqq Ekle Spurl

Forum Linki:
Html Linki:
Direkt Link:
Mause ile tıklayın ve Ctrl + C ile kopyalayın
Geyik Merkezi Geyik Forum Geyik Manken Resmi