Geyik Merkezi Geyik Merkezi Video Mail forum


Ki Sen (Akor+Tab)10441 - Yalın

------------------------------------)

------------------------------------)
------------------------------------)
------------------------------------) kez
---0--7--7--8--10--8--7------7------)
-------------------------10---------)

----------------------------------
----------------------------------
----------------------------------
------------------10--9--7--9--7--
---0--7--7--8--10-----------------
----------------------------------

hazırlanmış bir yere gidiyor gibisin

benim her yerde elim kolum var

bilmez misin yüzüm düşmüş

kaç gündür düşünüyorum
f
tenhalaştı kahvaltılarımız
f
bomboş bakıyoruz artık
f
bir bildiğin var susuyor gibisin

ki sen benim gözyeşlarmıda gördün
dm
sen benim ilk aldıgım güldün


heyecanını kaybetmişsin
g
yok inancını kaybetmişsin
dm
doya doya sarmamışım
f
bize çok günah etmişsin

heyecanını kaybetmişsin
g
yok inancını kaybetmişsin
dm
doya doya sarmamışım
f
bize çok günah etmişsin

-----------------------------------)
-----------------------------------)
-----------------------------------)
-10-9-10-9-10-12-9-7-5-3-----------)
-----------------------------------)
-----------------------------------)

-----------------------------------)
-----------------------------------)
-----------------------------------)
-9-7-9-7-9-10-7-5-3-2-3------------)
-----------------------------------)
-----------------------------------)

-----------------------------------)
-----------------------------------)
-----------------------9-7-5-4-----)
-7-5-7-5-7-9-5-3-2-5---------------)
-----------------------------------)
-----------------------------------)

kendi emeğim kendim çıkardım akorları tabları
akor11461
Yorum Ekle

(Lütfen Cevaplayın)
Yorumunuz:



Ekle : Ekle Face book Ekle Google Ekle Digg Ekle Reddit Ekle Furl Ekle Del.icio.us Ekle Jeqq Ekle Spurl

Forum Linki:
Html Linki:
Direkt Link:
Mause ile tıklayın ve Ctrl + C ile kopyalayın