Geyik Merkezi Geyik Merkezi Video Mail forum


Ölümler Çıplak gelir - Düş Sokağı sakinleri




e--------------------------------------------e
b--------------------------------------------b
g------------------0-------------------------g
d-----2------2-------------------------------d
a----2--2--2---2-----------------------------a
e---2----2-------2---------------------------e


e--------------------------------------------e
b--------------------------------------------b
g--------------------------------------------g
d-----2------2-----0-------------------------d
a----2--2---2--2-----------------------------a
e---2-----2------2---------------------------e

akor10318
Yorum Ekle

(Lütfen Cevaplayın)
Yorumunuz:



Ekle : Ekle Face book Ekle Google Ekle Digg Ekle Reddit Ekle Furl Ekle Del.icio.us Ekle Jeqq Ekle Spurl

Forum Linki:
Html Linki:
Direkt Link:
Mause ile tıklayın ve Ctrl + C ile kopyalayın