Geyik Merkezi Geyik Merkezi Video Mail forum


platonik - yakup

e------------------------------------------|

b------------------------------------------|
g---9-10-12-10-9--7--7-9-10-9-7--5---------|
d------------------------------------------|
a------------------------------------------|
e------------------------------------------|



c g
senin adını bir bilsem
dm am
sarılıp öpebilsem
c g
çaresizlik benim neşem
dm
platonik aşığınım ben


c
çaldın bütün tellerimi akorsuz keyfimi
c
sardın denizlerle sahillerimi
c g
açtım kuralsızca seven gözlerimi
g
hayallerle geçen günleri

e------------------------------------------|
b------------------------------------------|
g---7-5-4-5-4-0----------------------------|
d---------------3-2------------------------|
a------------------------------------------|
e------------------------------------------|



c g
senin adını bir bilsem
dm am
sarılıp öpebilsem
c g
çaresizlik benim neşem
dm
platonik aşığınım ben

e------------------------------------------| )
b------------------------------------------| )
g---12-12-12-10-9-7----10-10-10-9-7-5------| )2
d------------------------------------------| )
a------------------------------------------| )
e------------------------------------------| )

c g
verdim filmlerimde başrollerimi
c g
sildim defterimden bütün dertlerimi
c g
gördüm habersizce zehirlendiğimi
g
sensizken seni sevdiğimi

**nakarat**

kendim çıkarmaya çalıştım inş. olmuştur.
akor10293
Yorum Ekle

(Lütfen Cevaplayın)
Yorumunuz:



Ekle : Ekle Face book Ekle Google Ekle Digg Ekle Reddit Ekle Furl Ekle Del.icio.us Ekle Jeqq Ekle Spurl

Forum Linki:
Html Linki:
Direkt Link:
Mause ile tıklayın ve Ctrl + C ile kopyalayın