Geyik Merkezi Geyik Merkezi Video Mail forum


SONSUZ - PENTEGRAM

ıntro:


em
e----------------------------------------------------------

---------------------------------------------------------

---9-------7-----------------7-------7-----------------

-9----9--7----7----4-5-7---7---7---4---4----5-4-2-0-2--

---------------------------------------------------------

---------------------------------------------------------



e---------------|

b---------------|

g---------------|

d-----2------2--| x2

a-4-5----4-5----|

e---------------|




----------------------------------------|

----------------------------------------|

----------------------------------------|

-2-2----5-5--2---0----4-4-0--7-7--------| x2

-----3---------3-----------------7-5-7--|

----------------------------------------|





ıntro em-am-d-em

c-d-em

em
sanırsın,dağlarda yol olmaz
em
usanırsın,kalbinde güç kalmaz
em
uzanırsın,oooof yarın olmaz
em
zor günlerin,ardında huzur olmaz ki
em
her zaman,umutlar yön bulmaz
em
yarın olsa da,beklenen gün olmaz
g
sözlerim gerçektir
d em
yüreğim kardeştir,her zaman
g
umudum sonsuzdur
d em
uğraşım bitmez hiçbir zaman




c
geliyor geçiyor hayat
d em

dönüyor durmuyor dünya >>>>>>>> nak.
c
geliyor geçiyor zaman
d em
dönüyor durmuyor dünya

em
sanırsın,yalnızlık tek dostun

em
aldanırsın kaçmakla bitmiyor

em
hiçbir zaman,oooof yalnızlığın






akor9160
Yorum Ekle

(Lütfen Cevaplayın)
Yorumunuz:


Taglar :

Ekle : Ekle Face book Ekle Google Ekle Digg Ekle Reddit Ekle Furl Ekle Del.icio.us Ekle Jeqq Ekle Spurl

Forum Linki:
Html Linki:
Direkt Link:
Mause ile tıklayın ve Ctrl + C ile kopyalayın
Geyik Merkezi Geyik Forum Geyik Manken Resmi