Geyik Merkezi Geyik Merkezi Video Mail forum


toxicity - system of a down

toxicity 

gitar 1

|------------------------------------------------------------------------------
----|
|------------------------------------------------------------------------------
----|
|------------------------------------------------------------------------------
----|
|---7---7---7---7---/9---9---9---97---7---8---8---7---7/9---9----10----10---9-
--9-|
|-5---5---5---5---/7---7---7---75---5---5---5---5---5/7---7---7---7---7---7---
7---|
|------------------------------------------------------------------------------
----|

gitar 2

|---3---3---3---3---/5---5---5---5---3---3---4---4---3---3/5---5---6---6---4--
-5-|
|-1---1---1---1---/3---3---3---3---1---1---1---1---1---1/3---3---3---3---3---
3---|
|------------------------------------------------------------------------------
---|
|------------------------------------------------------------------------------
---|
|------------------------------------------------------------------------------
---|
|------------------------------------------------------------------------------
---|

önce:önce distortion gitar


|--------------------------------------|-------------------------------|
|--------------------------------------|-------------------------------|
|--------------------------------------|-------------------------------|
|--------------------------------------|-------------------------------|
|-0----3-2-0-2-0----8--8-8-8--7--7-7-7-|-3-2-0-2-0-3-2-0-2-0-3-2-0-2-0-|
|-0----3-2-0-2-0----8--8-8-8--7--7-7-7-|-3-2-0-2-0-3-2-0-2-0-3-2-0-2-0-|

akor10302
Yorum Ekle

(Lütfen Cevaplayın)
Yorumunuz:



Ekle : Ekle Face book Ekle Google Ekle Digg Ekle Reddit Ekle Furl Ekle Del.icio.us Ekle Jeqq Ekle Spurl

Forum Linki:
Html Linki:
Direkt Link:
Mause ile tıklayın ve Ctrl + C ile kopyalayın