Geyik Merkezi Geyik Merkezi Video Mail forum


YAĞMUR - Teoman

ıntro 


am
e||--0-------0--------0-----|--1------0------0---||
b||--1-------0--------0-----|--3------1------1---||
g||--2-------1--------1-----|--2------2------2---||
d||--2-------2--------2-----|--0------2------2---||
a||--0----------------------|---------0------0---|| 2
e||-------------------------|--------------------||


verse 1:

am
dayanmak zormuş meğer,
dm
sonu belli oyunlara,
am e
bekletmeye gücüm yoksa eğer

verse (bridge)

dm
oysa özgürlüğü seçmek,
am
başka vücutlar sevmek
dm
bir şehri tam kalbinden
e
beyninden vurup gitmek

nakarat:

am f#min
var aklımda bir yağmur
f am
çok uzaklardan
f#min
çağırıyor gelirsem
f am
severim diyor

f#min
yağmur, yağmur
f am
çok uzaklardan
f#min
çağırıyor gelirsem
f
severim diyor

geçiş (kızın vokal yaptığı yer) (ıntro ile aynı)
am
am

verse 3
am
her maske bir şey söyler,
dm
nefretler sevgiler,
am e
bırak artık sevmiyorsan eğer.

verse (bridge)

nakarat


solo (distortion kullanıp tremolo yapın, reverb orta dereceli)


dm
e||-----------------------|-------------------|---------------------|
b||-----------------------|-------------------|---------------------|
g||-----------------------|-------------------|---------------------|
d||-----------------------|--2----------------|---------------------|
a||--0-------2------3-----|-------------------|--0------2------3----|
e||-----------------------|-------------------|---------------------|



-------------------|---------------------|----------------------|
-------------------|---------------------|----------------------|
-------------------|---------------------|----------------------|
--3----------------|---------------------|--2-------------------|
-------------------|--0------2------3----|--------------2--3----|
-------------------|---------------------|----------------------|



-----------------------|--------------------||
-----------------------|--------------------||
-----------------------|--------------------||
-----------------------|--2-----------------||
--0------2-------3-----|--------------------||
-----------------------|--------------------||

verse (bridge)

nakarat sadece bas gitar ile)


f#min f
e||--5----------3---------|--2----------1-----| 2
a||-----------------------|-------------------|
d||-----------------------|-------------------|
g||-----------------------|-------------------|

nakarat tekrar



arkadaşlar kimse şarkıyı eklememiş ben ekleyeyim dedim
akor7396
Yorum Ekle

(Lütfen Cevaplayın)
Yorumunuz:


Taglar :

Ekle : Ekle Face book Ekle Google Ekle Digg Ekle Reddit Ekle Furl Ekle Del.icio.us Ekle Jeqq Ekle Spurl

Forum Linki:
Html Linki:
Direkt Link:
Mause ile tıklayın ve Ctrl + C ile kopyalayın
Geyik Merkezi Geyik Forum Geyik Manken Resmi